  0
SECTION
  2
HEADER
  9
$ACADVER
  1
AC1009
  9
$INSBASE
 10
0.0
 20
0.0
 30
0.0
  9
$EXTMAX
 10
16.0
 20
9.5
 30
0.0
  9
$EXTMIN
 10
-16.0
 20
-9.5
 30
0.0
  9
$LIMMAX
 10
12.0
 20
9.0
  9
$LIMMIN
 10
0.0
 20
0.0
  9
$ORTHOMODE
 70
0
  9
$REGENMODE
 70
1
  9
$FILLMODE
 70
1
  9
$QTEXTMODE
 70
0
  9
$MIRRTEXT
 70
1
  9
$DRAGMODE
 70
2
  9
$LTSCALE
 40
1.0
  9
$OSMODE
 70
0
  9
$ATTMODE
 70
1
  9
$TEXTSIZE
 40
0.2
  9
$TRACEWID
 40
0.05
  9
$TEXTSTYLE
  7
STANDARD
  9
$CLAYER
  8
0
  9
$CELTYPE
  6
CONTINUOUS
  9
$CECOLOR
 62
256
  9
$DIMSCALE
 40
1.0
  9
$DIMASZ
 40
0.18
  9
$DIMEXO
 40
0.0625
  9
$DIMDLI
 40
0.38
  9
$DIMRND
 40
0.0
  9
$DIMDLE
 40
0.0
  9
$DIMEXE
 40
0.18
  9
$DIMTP
 40
0.0
  9
$DIMTM
 40
0.0
  9
$DIMTXT
 40
0.18
  9
$DIMCEN
 40
0.09
  9
$DIMTSZ
 40
0.0
  9
$DIMTOL
 70
0
  9
$DIMLIM
 70
0
  9
$DIMTIH
 70
1
  9
$DIMTOH
 70
1
  9
$DIMSE1
 70
0
  9
$DIMSE2
 70
0
  9
$DIMTAD
 70
0
  9
$DIMZIN
 70
0
  9
$DIMBLK
  1

  9
$DIMASO
 70
1
  9
$DIMSHO
 70
1
  9
$DIMPOST
  1

  9
$DIMAPOST
  1

  9
$DIMALT
 70
0
  9
$DIMALTD
 70
2
  9
$DIMALTF
 40
25.4
  9
$DIMLFAC
 40
1.0
  9
$DIMTOFL
 70
0
  9
$DIMTVP
 40
0.0
  9
$DIMTIX
 70
0
  9
$DIMSOXD
 70
0
  9
$DIMSAH
 70
0
  9
$DIMBLK1
  1

  9
$DIMBLK2
  1

  9
$DIMSTYLE
  2
*UNNAMED
  9
$DIMCLRD
 70
0
  9
$DIMCLRE
 70
0
  9
$DIMCLRT
 70
0
  9
$DIMTFAC
 40
1.0
  9
$DIMGAP
 40
0.09
  9
$LUNITS
 70
2
  9
$LUPREC
 70
4
  9
$AXISMODE
 70
0
  9
$AXISUNIT
 10
0.0
 20
0.0
  9
$SKETCHINC
 40
0.1
  9
$FILLETRAD
 40
0.0
  9
$AUNITS
 70
0
  9
$AUPREC
 70
0
  9
$MENU
  1
acad
  9
$ELEVATION
 40
0.0
  9
$PELEVATION
 40
0.0
  9
$THICKNESS
 40
0.0
  9
$LIMCHECK
 70
0
  9
$BLIPMODE
 70
1
  9
$CHAMFERA
 40
0.0
  9
$CHAMFERB
 40
0.0
  9
$SKPOLY
 70
0
  9
$TDCREATE
 40
0.0
  9
$TDUPDATE
 40
0.0
  9
$TDINDWG
 40
0.0
  9
$TDUSRTIMER
 40
0.0
  9
$USRTIMER
 70
1
  9
$ANGBASE
 50
0.0
  9
$ANGDIR
 70
0
  9
$PDMODE
 70
0
  9
$PDSIZE
 40
0.0
  9
$PLINEWID
 40
0.0
  9
$COORDS
 70
0
  9
$SPLFRAME
 70
0
  9
$SPLINETYPE
 70
6
  9
$SPLINESEGS
 70
10
  9
$ATTDIA
 70
0
  9
$ATTREQ
 70
1
  9
$HANDLING
 70
1
  9
$HANDSEED
  5
00000000000002b6
  9
$SURFTAB1
 70
6
  9
$SURFTAB2
 70
6
  9
$SURFTYPE
 70
6
  9
$SURFU
 70
10
  9
$SURFV
 70
10
  9
$UCSNAME
  2

  9
$UCSORG
 10
0.0
 20
0.0
 30
0.0
  9
$UCSXDIR
 10
1.0
 20
0.0
 30
0.0
  9
$UCSYDIR
 10
0.0
 20
1.0
 30
0.0
  9
$PUCSNAME
  2
 
  9
$PUCSORG
 10
0.0
 20
0.0
 30
0.0
  9
$PUCSXDIR
 10
1.0
 20
0.0
 30
0.0
  9
$PUCSYDIR
 10
0.0
 20
1.0
 30
0.0
  9
$USERI1
 70
0
  9
$USERI2
 70
0
  9
$USERI3
 70
0
  9
$USERI4
 70
0
  9
$USERI5
 70
0
  9
$USERR1
 40
0.0
  9
$USERR2
 40
0.0
  9
$USERR3
 40
0.0
  9
$USERR4
 40
0.0
  9
$USERR5
 40
0.0
  9
$WORLDVIEW
 70
1
  9
$SHADEDGE
 70
3
  9
$SHADEDIF
 70
70
  9
$TILEMODE
 70
1
  9
$MAXACTVP
 70
16
  9
$PINSBASE
 10
0.0
 20
0.0
 30
0.0
  9
$PLIMCHECK
 70
0
  9
$PEXTMIN
 10
-1.0000000000E+2
 20
-1.0000000000E+2
 30
-1.0000000000E+2
  9
$PEXTMAX
 10
-1.0000000000E+2
 20
-1.0000000000E+2
 30
-1.0000000000E+2
  9
$PLIMMIN
 10
0.0
 20
0.0
  9
$PLIMMAX
 10
12.0
 20
9.0
  9
$UNITMODE
 70
0
  9
$VISRETAIN
 70
0
  0
ENDSEC
  0
SECTION
  2
TABLES
  0
TABLE
  2
LTYPE
 70
8
  0
LTYPE
  2
CONTINUOUS
 70
64
  3
Solid line
 72
65
 73
0
 40
0.0
  0
LTYPE
  2
DOT
 70
64
  3
. . . . . . . . . . . . . . . . . . . . . . . . . .
 72
65
 73
2
 40
0.25
 49
0.0
 49
-0.25
  0
LTYPE
  2
USTATION2
 70
64
  3
______  ______  ______  ______  ______  ______  ___?è
 72
65
 73
2
 40
1.0
 49
0.75
 49
-0.25
  0
LTYPE
  2
DASHED
 70
64
  3
__ __ __ __ __ __ __ __ __ __ __ __ __ __ __ __ __ ?à
 72
65
 73
2
 40
0.75
 49
0.5
 49
-0.25
  0
LTYPE
  2
DASHDOT
 70
64
  3
__ . __ . __ . __ . __ . __ . __ . __ . __ . __ . _?à
 72
65
 73
4
 40
1.0
 49
0.5
 49
-0.25
 49
0.0
 49
-0.25
  0
LTYPE
  2
HIDDEN
 70
64
  3
__ __ __ __ __ __ __ __ __ __ __ __ __ __ __ __ __ ?Ð
 72
65
 73
2
 40
0.375
 49
0.25
 49
-0.125
  0
LTYPE
  2
DIVIDE
 70
64
  3
____ . . ____ . . ____ . . ____ . . ____ . . ____ .?à
 72
65
 73
6
 40
1.25
 49
0.5
 49
-0.25
 49
0.0
 49
-0.25
 49
0.0
 49
-0.25
  0
LTYPE
  2
BORDER
 70
64
  3
__ __ . __ __ . __ __ . __ __ . __ __ . __ __ . __ ?à
 72
65
 73
6
 40
1.75
 49
0.5
 49
-0.25
 49
0.5
 49
-0.25
 49
0.0
 49
-0.25
  0
ENDTAB
  0
TABLE
  2
APPID
 70
1
  0
APPID
  2
ACAD
 70
0
  0
ENDTAB
  0
TABLE
  2
DIMSTYLE
 70
0
  0
ENDTAB
  0
TABLE
  2
LAYER
 70
4
  0
LAYER
  2
0
 70
0
 62
7
  6
CONTINUOUS
  0
LAYER
  2
CONSTRUCTION_CLASS
 70
1
 62
7
  6
CONTINUOUS
  0
LAYER
  2
PATTERN_CLASS
 70
1
 62
7
  6
CONTINUOUS
  0
LAYER
  2
2
 70
0
 62
7
  6
CONTINUOUS
  0
ENDTAB
  0
TABLE
  2
STYLE
 70
7
  0
STYLE
  2
STANDARD
 70
0
 40
0.2
 41
1.0
 50
0.0
 71
0
 42
0.2
  3
txt
  4

  0
STYLE
  2
MONOTXT
 70
0
 40
0.2
 41
1.0
 50
0.0
 71
0
 42
0.2
  3
monotxt
  4

  0
STYLE
  2
ROMANC
 70
0
 40
0.2
 41
1.0
 50
0.0
 71
0
 42
0.2
  3
romanc
  4

  0
STYLE
  2
ROMANS
 70
0
 40
0.2
 41
1.0
 50
0.0
 71
0
 42
0.2
  3
romans
  4

  0
STYLE
  2
ROMANT
 70
0
 40
0.2
 41
1.0
 50
0.0
 71
0
 42
0.2
  3
romant
  4

  0
STYLE
  2
ITALICC
 70
0
 40
0.2
 41
1.0
 50
0.0
 71
0
 42
0.2
  3
italicc
  4

  0
STYLE
  2
GREEKC
 70
0
 40
0.2
 41
1.0
 50
0.0
 71
0
 42
0.2
  3
greekc
  4

  0
ENDTAB
  0
TABLE
  2
UCS
 70
0
  0
ENDTAB
  0
TABLE
  2
VIEW
 70
0
  0
ENDTAB
  0
TABLE
  2
VPORT
 70
1
  0
VPORT
  2
*ACTIVE
 70
0
 10
0.0
 20
0.0010952903
 11
0.99921875
 21
1.0
 12
0.0
 22
0.0
 13
0.0
 23
0.0
 14
0.0
 24
0.0
 15
0.0
 25
0.0
 16
0.0
 26
0.0
 36
1.0
 17
0.3
 27
-1.440611337
 37
0.0
 40
35.017377326
 41
1.4024122807
 42
50.0
 43
0.0004
 44
0.0
 50
0.0
 51
0.0
 71
0
 72
0
 73
0
 74
0
 75
0
 76
0
 77
0
 78
0
  0
ENDTAB
  0
ENDSEC
  0
SECTION
  2
BLOCKS
  0
ENDSEC
  0
SECTION
  2
ENTITIES
  0
LINE
  8
2
  5
02
  6
CONTINUOUS
 62
253
 10
16.0
 20
9.5
 30
0.0
 11
-16.0
 21
9.5
 31
0.0
  0
LINE
  8
2
  5
04
  6
CONTINUOUS
 62
253
 10
16.0
 20
9.5
 30
0.0
 11
16.0
 21
-9.5
 31
0.0
  0
LINE
  8
2
  5
06
  6
CONTINUOUS
 62
253
 10
-16.0
 20
9.5
 30
0.0
 11
-16.0
 21
-9.5
 31
0.0
  0
LINE
  8
2
  5
08
  6
CONTINUOUS
 62
253
 10
16.0
 20
-9.5
 30
0.0
 11
-16.0
 21
-9.5
 31
0.0
  0
CIRCLE
  8
2
  5
0a
  6
CONTINUOUS
 62
253
 10
15.7
 20
9.0
 30
0.0
 40
0.125
  0
CIRCLE
  8
2
  5
0c
  6
CONTINUOUS
 62
253
 10
15.7
 20
5.4
 30
0.0
 40
0.125
  0
CIRCLE
  8
2
  5
0e
  6
CONTINUOUS
 62
253
 10
15.7
 20
1.8
 30
0.0
 40
0.125
  0
CIRCLE
  8
2
  5
10
  6
CONTINUOUS
 62
253
 10
15.7
 20
-1.8
 30
0.0
 40
0.125
  0
CIRCLE
  8
2
  5
12
  6
CONTINUOUS
 62
253
 10
15.7
 20
-5.4
 30
0.0
 40
0.125
  0
CIRCLE
  8
2
  5
14
  6
CONTINUOUS
 62
253
 10
15.7
 20
-9.0
 30
0.0
 40
0.125
  0
CIRCLE
  8
2
  5
16
  6
CONTINUOUS
 62
253
 10
-15.7
 20
9.0
 30
0.0
 40
0.125
  0
CIRCLE
  8
2
  5
18
  6
CONTINUOUS
 62
253
 10
-15.7
 20
5.4
 30
0.0
 40
0.125
  0
CIRCLE
  8
2
  5
1a
  6
CONTINUOUS
 62
253
 10
-15.7
 20
1.8
 30
0.0
 40
0.125
  0
CIRCLE
  8
2
  5
1c
  6
CONTINUOUS
 62
253
 10
-15.7
 20
-1.8
 30
0.0
 40
0.125
  0
CIRCLE
  8
2
  5
1e
  6
CONTINUOUS
 62
253
 10
-15.7
 20
-5.4
 30
0.0
 40
0.125
  0
CIRCLE
  8
2
  5
20
  6
CONTINUOUS
 62
253
 10
-15.7
 20
-9.0
 30
0.0
 40
0.125
  0
CIRCLE
  8
2
  5
22
  6
CONTINUOUS
 62
253
 10
15.0
 20
9.2
 30
0.0
 40
0.125
  0
CIRCLE
  8
2
  5
24
  6
CONTINUOUS
 62
253
 10
10.7
 20
9.2
 30
0.0
 40
0.125
  0
CIRCLE
  8
2
  5
26
  6
CONTINUOUS
 62
253
 10
6.4
 20
9.2
 30
0.0
 40
0.125
  0
CIRCLE
  8
2
  5
28
  6
CONTINUOUS
 62
253
 10
2.1
 20
9.2
 30
0.0
 40
0.125
  0
CIRCLE
  8
2
  5
2a
  6
CONTINUOUS
 62
253
 10
-2.1
 20
9.2
 30
0.0
 40
0.125
  0
CIRCLE
  8
2
  5
2c
  6
CONTINUOUS
 62
253
 10
-6.4
 20
9.2
 30
0.0
 40
0.125
  0
CIRCLE
  8
2
  5
2e
  6
CONTINUOUS
 62
253
 10
-10.7
 20
9.2
 30
0.0
 40
0.125
  0
CIRCLE
  8
2
  5
30
  6
CONTINUOUS
 62
253
 10
-15.0
 20
9.2
 30
0.0
 40
0.125
  0
CIRCLE
  8
2
  5
32
  6
CONTINUOUS
 62
253
 10
15.0
 20
-9.2
 30
0.0
 40
0.125
  0
CIRCLE
  8
2
  5
34
  6
CONTINUOUS
 62
253
 10
10.7
 20
-9.2
 30
0.0
 40
0.125
  0
CIRCLE
  8
2
  5
36
  6
CONTINUOUS
 62
253
 10
6.4
 20
-9.2
 30
0.0
 40
0.125
  0
CIRCLE
  8
2
  5
38
  6
CONTINUOUS
 62
253
 10
2.1
 20
-9.2
 30
0.0
 40
0.125
  0
CIRCLE
  8
2
  5
3a
  6
CONTINUOUS
 62
253
 10
-2.1
 20
-9.2
 30
0.0
 40
0.125
  0
CIRCLE
  8
2
  5
3c
  6
CONTINUOUS
 62
253
 10
-6.4
 20
-9.2
 30
0.0
 40
0.125
  0
CIRCLE
  8
2
  5
3e
  6
CONTINUOUS
 62
253
 10
-10.7
 20
-9.2
 30
0.0
 40
0.125
  0
CIRCLE
  8
2
  5
40
  6
CONTINUOUS
 62
253
 10
-15.0
 20
-9.2
 30
0.0
 40
0.125
  0
CIRCLE
  8
2
  5
42
  6
CONTINUOUS
 62
253
 10
13.3
 20
-6.4
 30
0.0
 40
1.75
  0
CIRCLE
  8
2
  5
44
  6
CONTINUOUS
 62
253
 10
13.3
 20
6.4
 30
0.0
 40
1.75
  0
CIRCLE
  8
2
  5
46
  6
CONTINUOUS
 62
253
 10
-13.3
 20
-6.4
 30
0.0
 40
1.75
  0
CIRCLE
  8
2
  5
48
  6
CONTINUOUS
 62
253
 10
-13.3
 20
6.4
 30
0.0
 40
1.75
  0
CIRCLE
  8
2
  5
4a
  6
CONTINUOUS
 62
253
 10
0.5
 20
-0.5
 30
0.0
 40
0.2
  0
CIRCLE
  8
2
  5
4c
  6
CONTINUOUS
 62
253
 10
0.5
 20
-1.5
 30
0.0
 40
0.2
  0
CIRCLE
  8
2
  5
4e
  6
CONTINUOUS
 62
253
 10
0.5
 20
-2.5
 30
0.0
 40
0.2
  0
CIRCLE
  8
2
  5
50
  6
CONTINUOUS
 62
253
 10
0.5
 20
-3.5
 30
0.0
 40
0.2
  0
CIRCLE
  8
2
  5
52
  6
CONTINUOUS
 62
253
 10
0.5
 20
-4.5
 30
0.0
 40
0.2
  0
CIRCLE
  8
2
  5
54
  6
CONTINUOUS
 62
253
 10
0.5
 20
-5.5
 30
0.0
 40
0.2
  0
CIRCLE
  8
2
  5
56
  6
CONTINUOUS
 62
253
 10
0.5
 20
-6.5
 30
0.0
 40
0.2
  0
CIRCLE
  8
2
  5
58
  6
CONTINUOUS
 62
253
 10
0.5
 20
6.5
 30
0.0
 40
0.2
  0
CIRCLE
  8
2
  5
5a
  6
CONTINUOUS
 62
253
 10
0.5
 20
5.5
 30
0.0
 40
0.2
  0
CIRCLE
  8
2
  5
5c
  6
CONTINUOUS
 62
253
 10
0.5
 20
4.5
 30
0.0
 40
0.2
  0
CIRCLE
  8
2
  5
5e
  6
CONTINUOUS
 62
253
 10
0.5
 20
3.5
 30
0.0
 40
0.2
  0
CIRCLE
  8
2
  5
60
  6
CONTINUOUS
 62
253
 10
0.5
 20
2.5
 30
0.0
 40
0.2
  0
CIRCLE
  8
2
  5
62
  6
CONTINUOUS
 62
253
 10
0.5
 20
1.5
 30
0.0
 40
0.2
  0
CIRCLE
  8
2
  5
64
  6
CONTINUOUS
 62
253
 10
0.5
 20
0.5
 30
0.0
 40
0.2
  0
CIRCLE
  8
2
  5
66
  6
CONTINUOUS
 62
253
 10
1.5
 20
-0.5
 30
0.0
 40
0.2
  0
CIRCLE
  8
2
  5
68
  6
CONTINUOUS
 62
253
 10
1.5
 20
-1.5
 30
0.0
 40
0.2
  0
CIRCLE
  8
2
  5
6a
  6
CONTINUOUS
 62
253
 10
1.5
 20
-2.5
 30
0.0
 40
0.2
  0
CIRCLE
  8
2
  5
6c
  6
CONTINUOUS
 62
253
 10
1.5
 20
-3.5
 30
0.0
 40
0.2
  0
CIRCLE
  8
2
  5
6e
  6
CONTINUOUS
 62
253
 10
1.5
 20
-4.5
 30
0.0
 40
0.2
  0
CIRCLE
  8
2
  5
70
  6
CONTINUOUS
 62
253
 10
1.5
 20
-5.5
 30
0.0
 40
0.2
  0
CIRCLE
  8
2
  5
72
  6
CONTINUOUS
 62
253
 10
1.5
 20
-6.5
 30
0.0
 40
0.2
  0
CIRCLE
  8
2
  5
74
  6
CONTINUOUS
 62
253
 10
1.5
 20
6.5
 30
0.0
 40
0.2
  0
CIRCLE
  8
2
  5
76
  6
CONTINUOUS
 62
253
 10
1.5
 20
5.5
 30
0.0
 40
0.2
  0
CIRCLE
  8
2
  5
78
  6
CONTINUOUS
 62
253
 10
1.5
 20
4.5
 30
0.0
 40
0.2
  0
CIRCLE
  8
2
  5
7a
  6
CONTINUOUS
 62
253
 10
1.5
 20
3.5
 30
0.0
 40
0.2
  0
CIRCLE
  8
2
  5
7c
  6
CONTINUOUS
 62
253
 10
1.5
 20
2.5
 30
0.0
 40
0.2
  0
CIRCLE
  8
2
  5
7e
  6
CONTINUOUS
 62
253
 10
1.5
 20
1.5
 30
0.0
 40
0.2
  0
CIRCLE
  8
2
  5
80
  6
CONTINUOUS
 62
253
 10
1.5
 20
0.5
 30
0.0
 40
0.2
  0
CIRCLE
  8
2
  5
82
  6
CONTINUOUS
 62
253
 10
2.5
 20
-0.5
 30
0.0
 40
0.2
  0
CIRCLE
  8
2
  5
84
  6
CONTINUOUS
 62
253
 10
2.5
 20
-1.5
 30
0.0
 40
0.2
  0
CIRCLE
  8
2
  5
86
  6
CONTINUOUS
 62
253
 10
2.5
 20
-2.5
 30
0.0
 40
0.2
  0
CIRCLE
  8
2
  5
88
  6
CONTINUOUS
 62
253
 10
2.5
 20
-3.5
 30
0.0
 40
0.2
  0
CIRCLE
  8
2
  5
8a
  6
CONTINUOUS
 62
253
 10
2.5
 20
-4.5
 30
0.0
 40
0.2
  0
CIRCLE
  8
2
  5
8c
  6
CONTINUOUS
 62
253
 10
2.5
 20
-5.5
 30
0.0
 40
0.2
  0
CIRCLE
  8
2
  5
8e
  6
CONTINUOUS
 62
253
 10
2.5
 20
-6.5
 30
0.0
 40
0.2
  0
CIRCLE
  8
2
  5
90
  6
CONTINUOUS
 62
253
 10
2.5
 20
6.5
 30
0.0
 40
0.2
  0
CIRCLE
  8
2
  5
92
  6
CONTINUOUS
 62
253
 10
2.5
 20
5.5
 30
0.0
 40
0.2
  0
CIRCLE
  8
2
  5
94
  6
CONTINUOUS
 62
253
 10
2.5
 20
4.5
 30
0.0
 40
0.2
  0
CIRCLE
  8
2
  5
96
  6
CONTINUOUS
 62
253
 10
2.5
 20
3.5
 30
0.0
 40
0.2
  0
CIRCLE
  8
2
  5
98
  6
CONTINUOUS
 62
253
 10
2.5
 20
2.5
 30
0.0
 40
0.2
  0
CIRCLE
  8
2
  5
9a
  6
CONTINUOUS
 62
253
 10
2.5
 20
1.5
 30
0.0
 40
0.2
  0
CIRCLE
  8
2
  5
9c
  6
CONTINUOUS
 62
253
 10
2.5
 20
0.5
 30
0.0
 40
0.2
  0
CIRCLE
  8
2
  5
9e
  6
CONTINUOUS
 62
253
 10
3.5
 20
-0.5
 30
0.0
 40
0.2
  0
CIRCLE
  8
2
  5
a0
  6
CONTINUOUS
 62
253
 10
3.5
 20
-1.5
 30
0.0
 40
0.2
  0
CIRCLE
  8
2
  5
a2
  6
CONTINUOUS
 62
253
 10
3.5
 20
-2.5
 30
0.0
 40
0.2
  0
CIRCLE
  8
2
  5
a4
  6
CONTINUOUS
 62
253
 10
3.5
 20
-3.5
 30
0.0
 40
0.2
  0
CIRCLE
  8
2
  5
a6
  6
CONTINUOUS
 62
253
 10
3.5
 20
-4.5
 30
0.0
 40
0.2
  0
CIRCLE
  8
2
  5
a8
  6
CONTINUOUS
 62
253
 10
3.5
 20
-5.5
 30
0.0
 40
0.2
  0
CIRCLE
  8
2
  5
aa
  6
CONTINUOUS
 62
253
 10
3.5
 20
-6.5
 30
0.0
 40
0.2
  0
CIRCLE
  8
2
  5
ac
  6
CONTINUOUS
 62
253
 10
3.5
 20
6.5
 30
0.0
 40
0.2
  0
CIRCLE
  8
2
  5
ae
  6
CONTINUOUS
 62
253
 10
3.5
 20
5.5
 30
0.0
 40
0.2
  0
CIRCLE
  8
2
  5
b0
  6
CONTINUOUS
 62
253
 10
3.5
 20
4.5
 30
0.0
 40
0.2
  0
CIRCLE
  8
2
  5
b2
  6
CONTINUOUS
 62
253
 10
3.5
 20
3.5
 30
0.0
 40
0.2
  0
CIRCLE
  8
2
  5
b4
  6
CONTINUOUS
 62
253
 10
3.5
 20
2.5
 30
0.0
 40
0.2
  0
CIRCLE
  8
2
  5
b6
  6
CONTINUOUS
 62
253
 10
3.5
 20
1.5
 30
0.0
 40
0.2
  0
CIRCLE
  8
2
  5
b8
  6
CONTINUOUS
 62
253
 10
3.5
 20
0.5
 30
0.0
 40
0.2
  0
CIRCLE
  8
2
  5
ba
  6
CONTINUOUS
 62
253
 10
4.4
 20
-0.5
 30
0.0
 40
0.2
  0
CIRCLE
  8
2
  5
bc
  6
CONTINUOUS
 62
253
 10
4.4
 20
-1.5
 30
0.0
 40
0.2
  0
CIRCLE
  8
2
  5
be
  6
CONTINUOUS
 62
253
 10
4.4
 20
-2.5
 30
0.0
 40
0.2
  0
CIRCLE
  8
2
  5
c0
  6
CONTINUOUS
 62
253
 10
4.4
 20
-3.5
 30
0.0
 40
0.2
  0
CIRCLE
  8
2
  5
c2
  6
CONTINUOUS
 62
253
 10
4.4
 20
-4.5
 30
0.0
 40
0.2
  0
CIRCLE
  8
2
  5
c4
  6
CONTINUOUS
 62
253
 10
4.4
 20
-5.5
 30
0.0
 40
0.2
  0
CIRCLE
  8
2
  5
c6
  6
CONTINUOUS
 62
253
 10
4.4
 20
-6.5
 30
0.0
 40
0.2
  0
CIRCLE
  8
2
  5
c8
  6
CONTINUOUS
 62
253
 10
4.4
 20
6.5
 30
0.0
 40
0.2
  0
CIRCLE
  8
2
  5
ca
  6
CONTINUOUS
 62
253
 10
4.4
 20
5.5
 30
0.0
 40
0.2
  0
CIRCLE
  8
2
  5
cc
  6
CONTINUOUS
 62
253
 10
4.4
 20
4.5
 30
0.0
 40
0.2
  0
CIRCLE
  8
2
  5
ce
  6
CONTINUOUS
 62
253
 10
4.4
 20
3.5
 30
0.0
 40
0.2
  0
CIRCLE
  8
2
  5
d0
  6
CONTINUOUS
 62
253
 10
4.4
 20
2.5
 30
0.0
 40
0.2
  0
CIRCLE
  8
2
  5
d2
  6
CONTINUOUS
 62
253
 10
4.4
 20
1.5
 30
0.0
 40
0.2
  0
CIRCLE
  8
2
  5
d4
  6
CONTINUOUS
 62
253
 10
4.4
 20
0.5
 30
0.0
 40
0.2
  0
CIRCLE
  8
2
  5
d6
  6
CONTINUOUS
 62
253
 10
5.5
 20
-0.5
 30
0.0
 40
0.2
  0
CIRCLE
  8
2
  5
d8
  6
CONTINUOUS
 62
253
 10
5.5
 20
-1.5
 30
0.0
 40
0.2
  0
CIRCLE
  8
2
  5
da
  6
CONTINUOUS
 62
253
 10
5.5
 20
-2.5
 30
0.0
 40
0.2
  0
CIRCLE
  8
2
  5
dc
  6
CONTINUOUS
 62
253
 10
5.5
 20
-3.5
 30
0.0
 40
0.2
  0
CIRCLE
  8
2
  5
de
  6
CONTINUOUS
 62
253
 10
5.5
 20
-4.5
 30
0.0
 40
0.2
  0
CIRCLE
  8
2
  5
e0
  6
CONTINUOUS
 62
253
 10
5.5
 20
-5.5
 30
0.0
 40
0.2
  0
CIRCLE
  8
2
  5
e2
  6
CONTINUOUS
 62
253
 10
5.5
 20
-6.5
 30
0.0
 40
0.2
  0
CIRCLE
  8
2
  5
e4
  6
CONTINUOUS
 62
253
 10
5.5
 20
6.5
 30
0.0
 40
0.2
  0
CIRCLE
  8
2
  5
e6
  6
CONTINUOUS
 62
253
 10
5.5
 20
5.5
 30
0.0
 40
0.2
  0
CIRCLE
  8
2
  5
e8
  6
CONTINUOUS
 62
253
 10
5.5
 20
4.5
 30
0.0
 40
0.2
  0
CIRCLE
  8
2
  5
ea
  6
CONTINUOUS
 62
253
 10
5.5
 20
3.5
 30
0.0
 40
0.2
  0
CIRCLE
  8
2
  5
ec
  6
CONTINUOUS
 62
253
 10
5.5
 20
2.5
 30
0.0
 40
0.2
  0
CIRCLE
  8
2
  5
ee
  6
CONTINUOUS
 62
253
 10
5.5
 20
1.5
 30
0.0
 40
0.2
  0
CIRCLE
  8
2
  5
f0
  6
CONTINUOUS
 62
253
 10
5.5
 20
0.5
 30
0.0
 40
0.2
  0
CIRCLE
  8
2
  5
f2
  6
CONTINUOUS
 62
253
 10
6.5
 20
-0.5
 30
0.0
 40
0.2
  0
CIRCLE
  8
2
  5
f4
  6
CONTINUOUS
 62
253
 10
6.5
 20
-1.5
 30
0.0
 40
0.2
  0
CIRCLE
  8
2
  5
f6
  6
CONTINUOUS
 62
253
 10
6.5
 20
-2.5
 30
0.0
 40
0.2
  0
CIRCLE
  8
2
  5
f8
  6
CONTINUOUS
 62
253
 10
6.5
 20
-3.5
 30
0.0
 40
0.2
  0
CIRCLE
  8
2
  5
fa
  6
CONTINUOUS
 62
253
 10
6.5
 20
-4.5
 30
0.0
 40
0.2
  0
CIRCLE
  8
2
  5
fc
  6
CONTINUOUS
 62
253
 10
6.5
 20
-5.5
 30
0.0
 40
0.2
  0
CIRCLE
  8
2
  5
fe
  6
CONTINUOUS
 62
253
 10
6.5
 20
-6.5
 30
0.0
 40
0.2
  0
CIRCLE
  8
2
  5
0100
  6
CONTINUOUS
 62
253
 10
6.5
 20
6.5
 30
0.0
 40
0.2
  0
CIRCLE
  8
2
  5
0102
  6
CONTINUOUS
 62
253
 10
6.5
 20
5.5
 30
0.0
 40
0.2
  0
CIRCLE
  8
2
  5
0104
  6
CONTINUOUS
 62
253
 10
6.5
 20
4.5
 30
0.0
 40
0.2
  0
CIRCLE
  8
2
  5
0106
  6
CONTINUOUS
 62
253
 10
6.5
 20
3.5
 30
0.0
 40
0.2
  0
CIRCLE
  8
2
  5
0108
  6
CONTINUOUS
 62
253
 10
6.5
 20
2.5
 30
0.0
 40
0.2
  0
CIRCLE
  8
2
  5
010a
  6
CONTINUOUS
 62
253
 10
6.5
 20
1.5
 30
0.0
 40
0.2
  0
CIRCLE
  8
2
  5
010c
  6
CONTINUOUS
 62
253
 10
6.5
 20
0.5
 30
0.0
 40
0.2
  0
CIRCLE
  8
2
  5
010e
  6
CONTINUOUS
 62
253
 10
7.5
 20
-0.5
 30
0.0
 40
0.2
  0
CIRCLE
  8
2
  5
0110
  6
CONTINUOUS
 62
253
 10
7.5
 20
-1.5
 30
0.0
 40
0.2
  0
CIRCLE
  8
2
  5
0112
  6
CONTINUOUS
 62
253
 10
7.5
 20
-2.5
 30
0.0
 40
0.2
  0
CIRCLE
  8
2
  5
0114
  6
CONTINUOUS
 62
253
 10
7.5
 20
-3.5
 30
0.0
 40
0.2
  0
CIRCLE
  8
2
  5
0116
  6
CONTINUOUS
 62
253
 10
7.5
 20
-4.5
 30
0.0
 40
0.2
  0
CIRCLE
  8
2
  5
0118
  6
CONTINUOUS
 62
253
 10
7.5
 20
-5.5
 30
0.0
 40
0.2
  0
CIRCLE
  8
2
  5
011a
  6
CONTINUOUS
 62
253
 10
7.5
 20
-6.5
 30
0.0
 40
0.2
  0
CIRCLE
  8
2
  5
011c
  6
CONTINUOUS
 62
253
 10
7.5
 20
6.5
 30
0.0
 40
0.2
  0
CIRCLE
  8
2
  5
011e
  6
CONTINUOUS
 62
253
 10
7.5
 20
5.5
 30
0.0
 40
0.2
  0
CIRCLE
  8
2
  5
0120
  6
CONTINUOUS
 62
253
 10
7.5
 20
4.5
 30
0.0
 40
0.2
  0
CIRCLE
  8
2
  5
0122
  6
CONTINUOUS
 62
253
 10
7.5
 20
3.5
 30
0.0
 40
0.2
  0
CIRCLE
  8
2
  5
0124
  6
CONTINUOUS
 62
253
 10
7.5
 20
2.5
 30
0.0
 40
0.2
  0
CIRCLE
  8
2
  5
0126
  6
CONTINUOUS
 62
253
 10
7.5
 20
1.5
 30
0.0
 40
0.2
  0
CIRCLE
  8
2
  5
0128
  6
CONTINUOUS
 62
253
 10
7.5
 20
0.5
 30
0.0
 40
0.2
  0
CIRCLE
  8
2
  5
012a
  6
CONTINUOUS
 62
253
 10
8.5
 20
-0.5
 30
0.0
 40
0.2
  0
CIRCLE
  8
2
  5
012c
  6
CONTINUOUS
 62
253
 10
8.5
 20
-1.5
 30
0.0
 40
0.2
  0
CIRCLE
  8
2
  5
012e
  6
CONTINUOUS
 62
253
 10
8.5
 20
-2.5
 30
0.0
 40
0.2
  0
CIRCLE
  8
2
  5
0130
  6
CONTINUOUS
 62
253
 10
8.5
 20
-3.5
 30
0.0
 40
0.2
  0
CIRCLE
  8
2
  5
0132
  6
CONTINUOUS
 62
253
 10
8.5
 20
-4.5
 30
0.0
 40
0.2
  0
CIRCLE
  8
2
  5
0134
  6
CONTINUOUS
 62
253
 10
8.5
 20
-5.5
 30
0.0
 40
0.2
  0
CIRCLE
  8
2
  5
0136
  6
CONTINUOUS
 62
253
 10
8.5
 20
-6.5
 30
0.0
 40
0.2
  0
CIRCLE
  8
2
  5
0138
  6
CONTINUOUS
 62
253
 10
8.5
 20
6.5
 30
0.0
 40
0.2
  0
CIRCLE
  8
2
  5
013a
  6
CONTINUOUS
 62
253
 10
8.5
 20
5.5
 30
0.0
 40
0.2
  0
CIRCLE
  8
2
  5
013c
  6
CONTINUOUS
 62
253
 10
8.5
 20
4.5
 30
0.0
 40
0.2
  0
CIRCLE
  8
2
  5
013e
  6
CONTINUOUS
 62
253
 10
8.5
 20
3.5
 30
0.0
 40
0.2
  0
CIRCLE
  8
2
  5
0140
  6
CONTINUOUS
 62
253
 10
8.5
 20
2.5
 30
0.0
 40
0.2
  0
CIRCLE
  8
2
  5
0142
  6
CONTINUOUS
 62
253
 10
8.5
 20
1.5
 30
0.0
 40
0.2
  0
CIRCLE
  8
2
  5
0144
  6
CONTINUOUS
 62
253
 10
8.5
 20
0.5
 30
0.0
 40
0.2
  0
CIRCLE
  8
2
  5
0146
  6
CONTINUOUS
 62
253
 10
9.5
 20
-0.5
 30
0.0
 40
0.2
  0
CIRCLE
  8
2
  5
0148
  6
CONTINUOUS
 62
253
 10
9.5
 20
-1.5
 30
0.0
 40
0.2
  0
CIRCLE
  8
2
  5
014a
  6
CONTINUOUS
 62
253
 10
9.5
 20
-2.5
 30
0.0
 40
0.2
  0
CIRCLE
  8
2
  5
014c
  6
CONTINUOUS
 62
253
 10
9.5
 20
-3.5
 30
0.0
 40
0.2
  0
CIRCLE
  8
2
  5
014e
  6
CONTINUOUS
 62
253
 10
9.5
 20
-4.5
 30
0.0
 40
0.2
  0
CIRCLE
  8
2
  5
0150
  6
CONTINUOUS
 62
253
 10
9.5
 20
-5.5
 30
0.0
 40
0.2
  0
CIRCLE
  8
2
  5
0152
  6
CONTINUOUS
 62
253
 10
9.5
 20
-6.5
 30
0.0
 40
0.2
  0
CIRCLE
  8
2
  5
0154
  6
CONTINUOUS
 62
253
 10
9.5
 20
6.5
 30
0.0
 40
0.2
  0
CIRCLE
  8
2
  5
0156
  6
CONTINUOUS
 62
253
 10
9.5
 20
5.5
 30
0.0
 40
0.2
  0
CIRCLE
  8
2
  5
0158
  6
CONTINUOUS
 62
253
 10
9.5
 20
4.5
 30
0.0
 40
0.2
  0
CIRCLE
  8
2
  5
015a
  6
CONTINUOUS
 62
253
 10
9.5
 20
3.5
 30
0.0
 40
0.2
  0
CIRCLE
  8
2
  5
015c
  6
CONTINUOUS
 62
253
 10
9.5
 20
2.5
 30
0.0
 40
0.2
  0
CIRCLE
  8
2
  5
015e
  6
CONTINUOUS
 62
253
 10
9.5
 20
1.5
 30
0.0
 40
0.2
  0
CIRCLE
  8
2
  5
0160
  6
CONTINUOUS
 62
253
 10
9.5
 20
0.5
 30
0.0
 40
0.2
  0
CIRCLE
  8
2
  5
0162
  6
CONTINUOUS
 62
253
 10
10.5
 20
-0.5
 30
0.0
 40
0.2
  0
CIRCLE
  8
2
  5
0164
  6
CONTINUOUS
 62
253
 10
10.5
 20
-1.5
 30
0.0
 40
0.2
  0
CIRCLE
  8
2
  5
0166
  6
CONTINUOUS
 62
253
 10
10.5
 20
-2.5
 30
0.0
 40
0.2
  0
CIRCLE
  8
2
  5
0168
  6
CONTINUOUS
 62
253
 10
10.5
 20
-3.5
 30
0.0
 40
0.2
  0
CIRCLE
  8
2
  5
016a
  6
CONTINUOUS
 62
253
 10
10.5
 20
-4.5
 30
0.0
 40
0.2
  0
CIRCLE
  8
2
  5
016c
  6
CONTINUOUS
 62
253
 10
10.5
 20
-5.5
 30
0.0
 40
0.2
  0
CIRCLE
  8
2
  5
016e
  6
CONTINUOUS
 62
253
 10
10.5
 20
-6.5
 30
0.0
 40
0.2
  0
CIRCLE
  8
2
  5
0170
  6
CONTINUOUS
 62
253
 10
10.5
 20
6.5
 30
0.0
 40
0.2
  0
CIRCLE
  8
2
  5
0172
  6
CONTINUOUS
 62
253
 10
10.5
 20
5.5
 30
0.0
 40
0.2
  0
CIRCLE
  8
2
  5
0174
  6
CONTINUOUS
 62
253
 10
10.5
 20
4.5
 30
0.0
 40
0.2
  0
CIRCLE
  8
2
  5
0176
  6
CONTINUOUS
 62
253
 10
10.5
 20
3.5
 30
0.0
 40
0.2
  0
CIRCLE
  8
2
  5
0178
  6
CONTINUOUS
 62
253
 10
10.5
 20
2.5
 30
0.0
 40
0.2
  0
CIRCLE
  8
2
  5
017a
  6
CONTINUOUS
 62
253
 10
10.5
 20
1.5
 30
0.0
 40
0.2
  0
CIRCLE
  8
2
  5
017c
  6
CONTINUOUS
 62
253
 10
10.5
 20
0.5
 30
0.0
 40
0.2
  0
CIRCLE
  8
2
  5
017e
  6
CONTINUOUS
 62
253
 10
-10.5
 20
-0.5
 30
0.0
 40
0.2
  0
CIRCLE
  8
2
  5
0180
  6
CONTINUOUS
 62
253
 10
-10.5
 20
-1.5
 30
0.0
 40
0.2
  0
CIRCLE
  8
2
  5
0182
  6
CONTINUOUS
 62
253
 10
-10.5
 20
-2.5
 30
0.0
 40
0.2
  0
CIRCLE
  8
2
  5
0184
  6
CONTINUOUS
 62
253
 10
-10.5
 20
-3.5
 30
0.0
 40
0.2
  0
CIRCLE
  8
2
  5
0186
  6
CONTINUOUS
 62
253
 10
-10.5
 20
-4.5
 30
0.0
 40
0.2
  0
CIRCLE
  8
2
  5
0188
  6
CONTINUOUS
 62
253
 10
-10.5
 20
-5.5
 30
0.0
 40
0.2
  0
CIRCLE
  8
2
  5
018a
  6
CONTINUOUS
 62
253
 10
-10.5
 20
-6.5
 30
0.0
 40
0.2
  0
CIRCLE
  8
2
  5
018c
  6
CONTINUOUS
 62
253
 10
-10.5
 20
6.5
 30
0.0
 40
0.2
  0
CIRCLE
  8
2
  5
018e
  6
CONTINUOUS
 62
253
 10
-10.5
 20
5.5
 30
0.0
 40
0.2
  0
CIRCLE
  8
2
  5
0190
  6
CONTINUOUS
 62
253
 10
-10.5
 20
4.5
 30
0.0
 40
0.2
  0
CIRCLE
  8
2
  5
0192
  6
CONTINUOUS
 62
253
 10
-10.5
 20
3.5
 30
0.0
 40
0.2
  0
CIRCLE
  8
2
  5
0194
  6
CONTINUOUS
 62
253
 10
-10.5
 20
2.5
 30
0.0
 40
0.2
  0
CIRCLE
  8
2
  5
0196
  6
CONTINUOUS
 62
253
 10
-10.5
 20
1.5
 30
0.0
 40
0.2
  0
CIRCLE
  8
2
  5
0198
  6
CONTINUOUS
 62
253
 10
-10.5
 20
0.5
 30
0.0
 40
0.2
  0
CIRCLE
  8
2
  5
019a
  6
CONTINUOUS
 62
253
 10
-9.5
 20
-0.5
 30
0.0
 40
0.2
  0
CIRCLE
  8
2
  5
019c
  6
CONTINUOUS
 62
253
 10
-9.5
 20
-1.5
 30
0.0
 40
0.2
  0
CIRCLE
  8
2
  5
019e
  6
CONTINUOUS
 62
253
 10
-9.5
 20
-2.5
 30
0.0
 40
0.2
  0
CIRCLE
  8
2
  5
01a0
  6
CONTINUOUS
 62
253
 10
-9.5
 20
-3.5
 30
0.0
 40
0.2
  0
CIRCLE
  8
2
  5
01a2
  6
CONTINUOUS
 62
253
 10
-9.5
 20
-4.5
 30
0.0
 40
0.2
  0
CIRCLE
  8
2
  5
01a4
  6
CONTINUOUS
 62
253
 10
-9.5
 20
-5.5
 30
0.0
 40
0.2
  0
CIRCLE
  8
2
  5
01a6
  6
CONTINUOUS
 62
253
 10
-9.5
 20
-6.5
 30
0.0
 40
0.2
  0
CIRCLE
  8
2
  5
01a8
  6
CONTINUOUS
 62
253
 10
-9.5
 20
6.5
 30
0.0
 40
0.2
  0
CIRCLE
  8
2
  5
01aa
  6
CONTINUOUS
 62
253
 10
-9.5
 20
5.5
 30
0.0
 40
0.2
  0
CIRCLE
  8
2
  5
01ac
  6
CONTINUOUS
 62
253
 10
-9.5
 20
4.5
 30
0.0
 40
0.2
  0
CIRCLE
  8
2
  5
01ae
  6
CONTINUOUS
 62
253
 10
-9.5
 20
3.5
 30
0.0
 40
0.2
  0
CIRCLE
  8
2
  5
01b0
  6
CONTINUOUS
 62
253
 10
-9.5
 20
2.5
 30
0.0
 40
0.2
  0
CIRCLE
  8
2
  5
01b2
  6
CONTINUOUS
 62
253
 10
-9.5
 20
1.5
 30
0.0
 40
0.2
  0
CIRCLE
  8
2
  5
01b4
  6
CONTINUOUS
 62
253
 10
-9.5
 20
0.5
 30
0.0
 40
0.2
  0
CIRCLE
  8
2
  5
01b6
  6
CONTINUOUS
 62
253
 10
-8.5
 20
-0.5
 30
0.0
 40
0.2
  0
CIRCLE
  8
2
  5
01b8
  6
CONTINUOUS
 62
253
 10
-8.5
 20
-1.5
 30
0.0
 40
0.2
  0
CIRCLE
  8
2
  5
01ba
  6
CONTINUOUS
 62
253
 10
-8.5
 20
-2.5
 30
0.0
 40
0.2
  0
CIRCLE
  8
2
  5
01bc
  6
CONTINUOUS
 62
253
 10
-8.5
 20
-3.5
 30
0.0
 40
0.2
  0
CIRCLE
  8
2
  5
01be
  6
CONTINUOUS
 62
253
 10
-8.5
 20
-4.5
 30
0.0
 40
0.2
  0
CIRCLE
  8
2
  5
01c0
  6
CONTINUOUS
 62
253
 10
-8.5
 20
-5.5
 30
0.0
 40
0.2
  0
CIRCLE
  8
2
  5
01c2
  6
CONTINUOUS
 62
253
 10
-8.5
 20
-6.5
 30
0.0
 40
0.2
  0
CIRCLE
  8
2
  5
01c4
  6
CONTINUOUS
 62
253
 10
-8.5
 20
6.5
 30
0.0
 40
0.2
  0
CIRCLE
  8
2
  5
01c6
  6
CONTINUOUS
 62
253
 10
-8.5
 20
5.5
 30
0.0
 40
0.2
  0
CIRCLE
  8
2
  5
01c8
  6
CONTINUOUS
 62
253
 10
-8.5
 20
4.5
 30
0.0
 40
0.2
  0
CIRCLE
  8
2
  5
01ca
  6
CONTINUOUS
 62
253
 10
-8.5
 20
3.5
 30
0.0
 40
0.2
  0
CIRCLE
  8
2
  5
01cc
  6
CONTINUOUS
 62
253
 10
-8.5
 20
2.5
 30
0.0
 40
0.2
  0
CIRCLE
  8
2
  5
01ce
  6
CONTINUOUS
 62
253
 10
-8.5
 20
1.5
 30
0.0
 40
0.2
  0
CIRCLE
  8
2
  5
01d0
  6
CONTINUOUS
 62
253
 10
-8.5
 20
0.5
 30
0.0
 40
0.2
  0
CIRCLE
  8
2
  5
01d2
  6
CONTINUOUS
 62
253
 10
-7.5
 20
-0.5
 30
0.0
 40
0.2
  0
CIRCLE
  8
2
  5
01d4
  6
CONTINUOUS
 62
253
 10
-7.5
 20
-1.5
 30
0.0
 40
0.2
  0
CIRCLE
  8
2
  5
01d6
  6
CONTINUOUS
 62
253
 10
-7.5
 20
-2.5
 30
0.0
 40
0.2
  0
CIRCLE
  8
2
  5
01d8
  6
CONTINUOUS
 62
253
 10
-7.5
 20
-3.5
 30
0.0
 40
0.2
  0
CIRCLE
  8
2
  5
01da
  6
CONTINUOUS
 62
253
 10
-7.5
 20
-4.5
 30
0.0
 40
0.2
  0
CIRCLE
  8
2
  5
01dc
  6
CONTINUOUS
 62
253
 10
-7.5
 20
-5.5
 30
0.0
 40
0.2
  0
CIRCLE
  8
2
  5
01de
  6
CONTINUOUS
 62
253
 10
-7.5
 20
-6.5
 30
0.0
 40
0.2
  0
CIRCLE
  8
2
  5
01e0
  6
CONTINUOUS
 62
253
 10
-7.5
 20
6.5
 30
0.0
 40
0.2
  0
CIRCLE
  8
2
  5
01e2
  6
CONTINUOUS
 62
253
 10
-7.5
 20
5.5
 30
0.0
 40
0.2
  0
CIRCLE
  8
2
  5
01e4
  6
CONTINUOUS
 62
253
 10
-7.5
 20
4.5
 30
0.0
 40
0.2
  0
CIRCLE
  8
2
  5
01e6
  6
CONTINUOUS
 62
253
 10
-7.5
 20
3.5
 30
0.0
 40
0.2
  0
CIRCLE
  8
2
  5
01e8
  6
CONTINUOUS
 62
253
 10
-7.5
 20
2.5
 30
0.0
 40
0.2
  0
CIRCLE
  8
2
  5
01ea
  6
CONTINUOUS
 62
253
 10
-7.5
 20
1.5
 30
0.0
 40
0.2
  0
CIRCLE
  8
2
  5
01ec
  6
CONTINUOUS
 62
253
 10
-7.5
 20
0.5
 30
0.0
 40
0.2
  0
CIRCLE
  8
2
  5
01ee
  6
CONTINUOUS
 62
253
 10
-6.6
 20
-0.5
 30
0.0
 40
0.2
  0
CIRCLE
  8
2
  5
01f0
  6
CONTINUOUS
 62
253
 10
-6.6
 20
-1.5
 30
0.0
 40
0.2
  0
CIRCLE
  8
2
  5
01f2
  6
CONTINUOUS
 62
253
 10
-6.6
 20
-2.5
 30
0.0
 40
0.2
  0
CIRCLE
  8
2
  5
01f4
  6
CONTINUOUS
 62
253
 10
-6.6
 20
-3.5
 30
0.0
 40
0.2
  0
CIRCLE
  8
2
  5
01f6
  6
CONTINUOUS
 62
253
 10
-6.6
 20
-4.5
 30
0.0
 40
0.2
  0
CIRCLE
  8
2
  5
01f8
  6
CONTINUOUS
 62
253
 10
-6.6
 20
-5.5
 30
0.0
 40
0.2
  0
CIRCLE
  8
2
  5
01fa
  6
CONTINUOUS
 62
253
 10
-6.6
 20
-6.5
 30
0.0
 40
0.2
  0
CIRCLE
  8
2
  5
01fc
  6
CONTINUOUS
 62
253
 10
-6.6
 20
6.5
 30
0.0
 40
0.2
  0
CIRCLE
  8
2
  5
01fe
  6
CONTINUOUS
 62
253
 10
-6.6
 20
5.5
 30
0.0
 40
0.2
  0
CIRCLE
  8
2
  5
0200
  6
CONTINUOUS
 62
253
 10
-6.6
 20
4.5
 30
0.0
 40
0.2
  0
CIRCLE
  8
2
  5
0202
  6
CONTINUOUS
 62
253
 10
-6.6
 20
3.5
 30
0.0
 40
0.2
  0
CIRCLE
  8
2
  5
0204
  6
CONTINUOUS
 62
253
 10
-6.6
 20
2.5
 30
0.0
 40
0.2
  0
CIRCLE
  8
2
  5
0206
  6
CONTINUOUS
 62
253
 10
-6.6
 20
1.5
 30
0.0
 40
0.2
  0
CIRCLE
  8
2
  5
0208
  6
CONTINUOUS
 62
253
 10
-6.6
 20
0.5
 30
0.0
 40
0.2
  0
CIRCLE
  8
2
  5
020a
  6
CONTINUOUS
 62
253
 10
-5.5
 20
-0.5
 30
0.0
 40
0.2
  0
CIRCLE
  8
2
  5
020c
  6
CONTINUOUS
 62
253
 10
-5.5
 20
-1.5
 30
0.0
 40
0.2
  0
CIRCLE
  8
2
  5
020e
  6
CONTINUOUS
 62
253
 10
-5.5
 20
-2.5
 30
0.0
 40
0.2
  0
CIRCLE
  8
2
  5
0210
  6
CONTINUOUS
 62
253
 10
-5.5
 20
-3.5
 30
0.0
 40
0.2
  0
CIRCLE
  8
2
  5
0212
  6
CONTINUOUS
 62
253
 10
-5.5
 20
-4.5
 30
0.0
 40
0.2
  0
CIRCLE
  8
2
  5
0214
  6
CONTINUOUS
 62
253
 10
-5.5
 20
-5.5
 30
0.0
 40
0.2
  0
CIRCLE
  8
2
  5
0216
  6
CONTINUOUS
 62
253
 10
-5.5
 20
-6.5
 30
0.0
 40
0.2
  0
CIRCLE
  8
2
  5
0218
  6
CONTINUOUS
 62
253
 10
-5.5
 20
6.5
 30
0.0
 40
0.2
  0
CIRCLE
  8
2
  5
021a
  6
CONTINUOUS
 62
253
 10
-5.5
 20
5.5
 30
0.0
 40
0.2
  0
CIRCLE
  8
2
  5
021c
  6
CONTINUOUS
 62
253
 10
-5.5
 20
4.5
 30
0.0
 40
0.2
  0
CIRCLE
  8
2
  5
021e
  6
CONTINUOUS
 62
253
 10
-5.5
 20
3.5
 30
0.0
 40
0.2
  0
CIRCLE
  8
2
  5
0220
  6
CONTINUOUS
 62
253
 10
-5.5
 20
2.5
 30
0.0
 40
0.2
  0
CIRCLE
  8
2
  5
0222
  6
CONTINUOUS
 62
253
 10
-5.5
 20
1.5
 30
0.0
 40
0.2
  0
CIRCLE
  8
2
  5
0224
  6
CONTINUOUS
 62
253
 10
-5.5
 20
0.5
 30
0.0
 40
0.2
  0
CIRCLE
  8
2
  5
0226
  6
CONTINUOUS
 62
253
 10
-4.5
 20
-0.5
 30
0.0
 40
0.2
  0
CIRCLE
  8
2
  5
0228
  6
CONTINUOUS
 62
253
 10
-4.5
 20
-1.5
 30
0.0
 40
0.2
  0
CIRCLE
  8
2
  5
022a
  6
CONTINUOUS
 62
253
 10
-4.5
 20
-2.5
 30
0.0
 40
0.2
  0
CIRCLE
  8
2
  5
022c
  6
CONTINUOUS
 62
253
 10
-4.5
 20
-3.5
 30
0.0
 40
0.2
  0
CIRCLE
  8
2
  5
022e
  6
CONTINUOUS
 62
253
 10
-4.5
 20
-4.5
 30
0.0
 40
0.2
  0
CIRCLE
  8
2
  5
0230
  6
CONTINUOUS
 62
253
 10
-4.5
 20
-5.5
 30
0.0
 40
0.2
  0
CIRCLE
  8
2
  5
0232
  6
CONTINUOUS
 62
253
 10
-4.5
 20
-6.5
 30
0.0
 40
0.2
  0
CIRCLE
  8
2
  5
0234
  6
CONTINUOUS
 62
253
 10
-4.5
 20
6.5
 30
0.0
 40
0.2
  0
CIRCLE
  8
2
  5
0236
  6
CONTINUOUS
 62
253
 10
-4.5
 20
5.5
 30
0.0
 40
0.2
  0
CIRCLE
  8
2
  5
0238
  6
CONTINUOUS
 62
253
 10
-4.5
 20
4.5
 30
0.0
 40
0.2
  0
CIRCLE
  8
2
  5
023a
  6
CONTINUOUS
 62
253
 10
-4.5
 20
3.5
 30
0.0
 40
0.2
  0
CIRCLE
  8
2
  5
023c
  6
CONTINUOUS
 62
253
 10
-4.5
 20
2.5
 30
0.0
 40
0.2
  0
CIRCLE
  8
2
  5
023e
  6
CONTINUOUS
 62
253
 10
-4.5
 20
1.5
 30
0.0
 40
0.2
  0
CIRCLE
  8
2
  5
0240
  6
CONTINUOUS
 62
253
 10
-4.5
 20
0.5
 30
0.0
 40
0.2
  0
CIRCLE
  8
2
  5
0242
  6
CONTINUOUS
 62
253
 10
-3.5
 20
-0.5
 30
0.0
 40
0.2
  0
CIRCLE
  8
2
  5
0244
  6
CONTINUOUS
 62
253
 10
-3.5
 20
-1.5
 30
0.0
 40
0.2
  0
CIRCLE
  8
2
  5
0246
  6
CONTINUOUS
 62
253
 10
-3.5
 20
-2.5
 30
0.0
 40
0.2
  0
CIRCLE
  8
2
  5
0248
  6
CONTINUOUS
 62
253
 10
-3.5
 20
-3.5
 30
0.0
 40
0.2
  0
CIRCLE
  8
2
  5
024a
  6
CONTINUOUS
 62
253
 10
-3.5
 20
-4.5
 30
0.0
 40
0.2
  0
CIRCLE
  8
2
  5
024c
  6
CONTINUOUS
 62
253
 10
-3.5
 20
-5.5
 30
0.0
 40
0.2
  0
CIRCLE
  8
2
  5
024e
  6
CONTINUOUS
 62
253
 10
-3.5
 20
-6.5
 30
0.0
 40
0.2
  0
CIRCLE
  8
2
  5
0250
  6
CONTINUOUS
 62
253
 10
-3.5
 20
6.5
 30
0.0
 40
0.2
  0
CIRCLE
  8
2
  5
0252
  6
CONTINUOUS
 62
253
 10
-3.5
 20
5.5
 30
0.0
 40
0.2
  0
CIRCLE
  8
2
  5
0254
  6
CONTINUOUS
 62
253
 10
-3.5
 20
4.5
 30
0.0
 40
0.2
  0
CIRCLE
  8
2
  5
0256
  6
CONTINUOUS
 62
253
 10
-3.5
 20
3.5
 30
0.0
 40
0.2
  0
CIRCLE
  8
2
  5
0258
  6
CONTINUOUS
 62
253
 10
-3.5
 20
2.5
 30
0.0
 40
0.2
  0
CIRCLE
  8
2
  5
025a
  6
CONTINUOUS
 62
253
 10
-3.5
 20
1.5
 30
0.0
 40
0.2
  0
CIRCLE
  8
2
  5
025c
  6
CONTINUOUS
 62
253
 10
-3.5
 20
0.5
 30
0.0
 40
0.2
  0
CIRCLE
  8
2
  5
025e
  6
CONTINUOUS
 62
253
 10
-2.5
 20
-0.5
 30
0.0
 40
0.2
  0
CIRCLE
  8
2
  5
0260
  6
CONTINUOUS
 62
253
 10
-2.5
 20
-1.5
 30
0.0
 40
0.2
  0
CIRCLE
  8
2
  5
0262
  6
CONTINUOUS
 62
253
 10
-2.5
 20
-2.5
 30
0.0
 40
0.2
  0
CIRCLE
  8
2
  5
0264
  6
CONTINUOUS
 62
253
 10
-2.5
 20
-3.5
 30
0.0
 40
0.2
  0
CIRCLE
  8
2
  5
0266
  6
CONTINUOUS
 62
253
 10
-2.5
 20
-4.5
 30
0.0
 40
0.2
  0
CIRCLE
  8
2
  5
0268
  6
CONTINUOUS
 62
253
 10
-2.5
 20
-5.5
 30
0.0
 40
0.2
  0
CIRCLE
  8
2
  5
026a
  6
CONTINUOUS
 62
253
 10
-2.5
 20
-6.5
 30
0.0
 40
0.2
  0
CIRCLE
  8
2
  5
026c
  6
CONTINUOUS
 62
253
 10
-2.5
 20
6.5
 30
0.0
 40
0.2
  0
CIRCLE
  8
2
  5
026e
  6
CONTINUOUS
 62
253
 10
-2.5
 20
5.5
 30
0.0
 40
0.2
  0
CIRCLE
  8
2
  5
0270
  6
CONTINUOUS
 62
253
 10
-2.5
 20
4.5
 30
0.0
 40
0.2
  0
CIRCLE
  8
2
  5
0272
  6
CONTINUOUS
 62
253
 10
-2.5
 20
3.5
 30
0.0
 40
0.2
  0
CIRCLE
  8
2
  5
0274
  6
CONTINUOUS
 62
253
 10
-2.5
 20
2.5
 30
0.0
 40
0.2
  0
CIRCLE
  8
2
  5
0276
  6
CONTINUOUS
 62
253
 10
-2.5
 20
1.5
 30
0.0
 40
0.2
  0
CIRCLE
  8
2
  5
0278
  6
CONTINUOUS
 62
253
 10
-2.5
 20
0.5
 30
0.0
 40
0.2
  0
CIRCLE
  8
2
  5
027a
  6
CONTINUOUS
 62
253
 10
-1.5
 20
-0.5
 30
0.0
 40
0.2
  0
CIRCLE
  8
2
  5
027c
  6
CONTINUOUS
 62
253
 10
-1.5
 20
-1.5
 30
0.0
 40
0.2
  0
CIRCLE
  8
2
  5
027e
  6
CONTINUOUS
 62
253
 10
-1.5
 20
-2.5
 30
0.0
 40
0.2
  0
CIRCLE
  8
2
  5
0280
  6
CONTINUOUS
 62
253
 10
-1.5
 20
-3.5
 30
0.0
 40
0.2
  0
CIRCLE
  8
2
  5
0282
  6
CONTINUOUS
 62
253
 10
-1.5
 20
-4.5
 30
0.0
 40
0.2
  0
CIRCLE
  8
2
  5
0284
  6
CONTINUOUS
 62
253
 10
-1.5
 20
-5.5
 30
0.0
 40
0.2
  0
CIRCLE
  8
2
  5
0286
  6
CONTINUOUS
 62
253
 10
-1.5
 20
-6.5
 30
0.0
 40
0.2
  0
CIRCLE
  8
2
  5
0288
  6
CONTINUOUS
 62
253
 10
-1.5
 20
6.5
 30
0.0
 40
0.2
  0
CIRCLE
  8
2
  5
028a
  6
CONTINUOUS
 62
253
 10
-1.5
 20
5.5
 30
0.0
 40
0.2
  0
CIRCLE
  8
2
  5
028c
  6
CONTINUOUS
 62
253
 10
-1.5
 20
4.5
 30
0.0
 40
0.2
  0
CIRCLE
  8
2
  5
028e
  6
CONTINUOUS
 62
253
 10
-1.5
 20
3.5
 30
0.0
 40
0.2
  0
CIRCLE
  8
2
  5
0290
  6
CONTINUOUS
 62
253
 10
-1.5
 20
2.5
 30
0.0
 40
0.2
  0
CIRCLE
  8
2
  5
0292
  6
CONTINUOUS
 62
253
 10
-1.5
 20
1.5
 30
0.0
 40
0.2
  0
CIRCLE
  8
2
  5
0294
  6
CONTINUOUS
 62
253
 10
-1.5
 20
0.5
 30
0.0
 40
0.2
  0
CIRCLE
  8
2
  5
0296
  6
CONTINUOUS
 62
253
 10
-0.5
 20
-0.5
 30
0.0
 40
0.2
  0
CIRCLE
  8
2
  5
0298
  6
CONTINUOUS
 62
253
 10
-0.5
 20
-1.5
 30
0.0
 40
0.2
  0
CIRCLE
  8
2
  5
029a
  6
CONTINUOUS
 62
253
 10
-0.5
 20
-2.5
 30
0.0
 40
0.2
  0
CIRCLE
  8
2
  5
029c
  6
CONTINUOUS
 62
253
 10
-0.5
 20
-3.5
 30
0.0
 40
0.2
  0
CIRCLE
  8
2
  5
029e
  6
CONTINUOUS
 62
253
 10
-0.5
 20
-4.5
 30
0.0
 40
0.2
  0
CIRCLE
  8
2
  5
02a0
  6
CONTINUOUS
 62
253
 10
-0.5
 20
-5.5
 30
0.0
 40
0.2
  0
CIRCLE
  8
2
  5
02a2
  6
CONTINUOUS
 62
253
 10
-0.5
 20
-6.5
 30
0.0
 40
0.2
  0
CIRCLE
  8
2
  5
02a4
  6
CONTINUOUS
 62
253
 10
-0.5
 20
6.5
 30
0.0
 40
0.2
  0
CIRCLE
  8
2
  5
02a6
  6
CONTINUOUS
 62
253
 10
-0.5
 20
5.5
 30
0.0
 40
0.2
  0
CIRCLE
  8
2
  5
02a8
  6
CONTINUOUS
 62
253
 10
-0.5
 20
4.5
 30
0.0
 40
0.2
  0
CIRCLE
  8
2
  5
02aa
  6
CONTINUOUS
 62
253
 10
-0.5
 20
3.5
 30
0.0
 40
0.2
  0
CIRCLE
  8
2
  5
02ac
  6
CONTINUOUS
 62
253
 10
-0.5
 20
2.5
 30
0.0
 40
0.2
  0
CIRCLE
  8
2
  5
02ae
  6
CONTINUOUS
 62
253
 10
-0.5
 20
1.5
 30
0.0
 40
0.2
  0
CIRCLE
  8
2
  5
02b0
  6
CONTINUOUS
 62
253
 10
-0.5
 20
0.5
 30
0.0
 40
0.2
  0
LINE
  8
2
  5
02b2
  6
CONTINUOUS
 62
253
 10
0.1
 20
0.0
 30
0.0
 11
-0.1
 21
0.0
 31
0.0
  0
LINE
  8
2
  5
02b4
  6
CONTINUOUS
 62
253
 10
0.0
 20
0.1
 30
0.0
 11
0.0
 21
-0.1
 31
0.0
  0
ENDSEC
  0
EOF
